  0
SECTION
  2
HEADER
  9
$ACADVER
  1
AC1015
  9
$ACADMAINTVER
 70
     6
  9
$DWGCODEPAGE
  3
ANSI_1254
  9
$INSBASE
 10
0.0
 20
0.0
 30
0.0
  9
$EXTMIN
 10
0.0
 20
0.0
 30
0.0
  9
$EXTMAX
 10
279.4
 20
215.9
 30
0.0
  9
$LIMMIN
 10
0.0
 20
0.0
  9
$LIMMAX
 10
279.4
 20
215.9
  9
$ORTHOMODE
 70
     0
  9
$REGENMODE
 70
     1
  9
$FILLMODE
 70
     1
  9
$QTEXTMODE
 70
     0
  9
$MIRRTEXT
 70
     1
  9
$LTSCALE
 40
1.0
  9
$ATTMODE
 70
     1
  9
$TEXTSIZE
 40
3.5
  9
$TRACEWID
 40
1.0
  9
$TEXTSTYLE
  7
Standard
  9
$CLAYER
  8
0
  9
$CELTYPE
  6
ByLayer
  9
$CECOLOR
 62
   256
  9
$CELTSCALE
 40
1.0
  9
$DISPSILH
 70
     0
  9
$DIMSCALE
 40
1.0
  9
$DIMASZ
 40
3.5
  9
$DIMEXO
 40
1.0
  9
$DIMDLI
 40
3.75
  9
$DIMRND
 40
0.0
  9
$DIMDLE
 40
0.0
  9
$DIMEXE
 40
1.0
  9
$DIMTP
 40
0.0
  9
$DIMTM
 40
0.0
  9
$DIMTXT
 40
3.5
  9
$DIMCEN
 40
2.5
  9
$DIMTSZ
 40
0.0
  9
$DIMTOL
 70
     0
  9
$DIMLIM
 70
     0
  9
$DIMTIH
 70
     1
  9
$DIMTOH
 70
     1
  9
$DIMSE1
 70
     0
  9
$DIMSE2
 70
     0
  9
$DIMTAD
 70
     1
  9
$DIMZIN
 70
     0
  9
$DIMBLK
  1

  9
$DIMASO
 70
     1
  9
$DIMSHO
 70
     1
  9
$DIMPOST
  1

  9
$DIMAPOST
  1

  9
$DIMALT
 70
     0
  9
$DIMALTD
 70
     3
  9
$DIMALTF
 40
0.0393700787
  9
$DIMLFAC
 40
1.0
  9
$DIMTOFL
 70
     1
  9
$DIMTVP
 40
0.0
  9
$DIMTIX
 70
     0
  9
$DIMSOXD
 70
     0
  9
$DIMSAH
 70
     0
  9
$DIMBLK1
  1

  9
$DIMBLK2
  1

  9
$DIMSTYLE
  2
ISO-25
  9
$DIMCLRD
 70
     0
  9
$DIMCLRE
 70
     0
  9
$DIMCLRT
 70
     0
  9
$DIMTFAC
 40
1.0
  9
$DIMGAP
 40
1.524
  9
$DIMJUST
 70
     0
  9
$DIMSD1
 70
     0
  9
$DIMSD2
 70
     0
  9
$DIMTOLJ
 70
     0
  9
$DIMTZIN
 70
     0
  9
$DIMALTZ
 70
     0
  9
$DIMALTTZ
 70
     0
  9
$DIMUPT
 70
     0
  9
$DIMDEC
 70
     2
  9
$DIMTDEC
 70
     2
  9
$DIMALTU
 70
     2
  9
$DIMALTTD
 70
     3
  9
$DIMTXSTY
  7
Standard
  9
$DIMAUNIT
 70
     0
  9
$DIMADEC
 70
     2
  9
$DIMALTRND
 40
0.0
  9
$DIMAZIN
 70
     0
  9
$DIMDSEP
 70
    44
  9
$DIMATFIT
 70
     3
  9
$DIMFRAC
 70
     0
  9
$DIMLDRBLK
  1

  9
$DIMLUNIT
 70
     2
  9
$DIMLWD
 70
    -2
  9
$DIMLWE
 70
    -2
  9
$DIMTMOVE
 70
     0
  9
$LUNITS
 70
     2
  9
$LUPREC
 70
     2
  9
$SKETCHINC
 40
1.0
  9
$FILLETRAD
 40
10.0
  9
$AUNITS
 70
     0
  9
$AUPREC
 70
     2
  9
$MENU
  1
.
  9
$ELEVATION
 40
0.0
  9
$PELEVATION
 40
0.0
  9
$THICKNESS
 40
0.0
  9
$LIMCHECK
 70
     0
  9
$CHAMFERA
 40
0.0
  9
$CHAMFERB
 40
0.0
  9
$CHAMFERC
 40
0.0
  9
$CHAMFERD
 40
0.0
  9
$SKPOLY
 70
     0
  9
$TDCREATE
 40
2458985.63311581
  9
$TDUCREATE
 40
2458985.50811581
  9
$TDUPDATE
 40
2458985.633116053
  9
$TDUUPDATE
 40
2458985.508116053
  9
$TDINDWG
 40
0.0000000116
  9
$TDUSRTIMER
 40
0.0000000116
  9
$USRTIMER
 70
     1
  9
$ANGBASE
 50
0.0
  9
$ANGDIR
 70
     0
  9
$PDMODE
 70
     0
  9
$PDSIZE
 40
-1.0
  9
$PLINEWID
 40
0.0
  9
$SPLFRAME
 70
     0
  9
$SPLINETYPE
 70
     6
  9
$SPLINESEGS
 70
     8
  9
$HANDSEED
  5
CB
  9
$SURFTAB1
 70
     6
  9
$SURFTAB2
 70
     6
  9
$SURFTYPE
 70
     6
  9
$SURFU
 70
     6
  9
$SURFV
 70
     6
  9
$UCSBASE
  2

  9
$UCSNAME
  2

  9
$UCSORG
 10
0.0
 20
0.0
 30
0.0
  9
$UCSXDIR
 10
1.0
 20
0.0
 30
0.0
  9
$UCSYDIR
 10
0.0
 20
1.0
 30
0.0
  9
$UCSORTHOREF
  2

  9
$UCSORTHOVIEW
 70
     0
  9
$UCSORGTOP
 10
0.0
 20
0.0
 30
0.0
  9
$UCSORGBOTTOM
 10
0.0
 20
0.0
 30
0.0
  9
$UCSORGLEFT
 10
0.0
 20
0.0
 30
0.0
  9
$UCSORGRIGHT
 10
0.0
 20
0.0
 30
0.0
  9
$UCSORGFRONT
 10
0.0
 20
0.0
 30
0.0
  9
$UCSORGBACK
 10
0.0
 20
0.0
 30
0.0
  9
$PUCSBASE
  2

  9
$PUCSNAME
  2

  9
$PUCSORG
 10
0.0
 20
0.0
 30
0.0
  9
$PUCSXDIR
 10
1.0
 20
0.0
 30
0.0
  9
$PUCSYDIR
 10
0.0
 20
1.0
 30
0.0
  9
$PUCSORTHOREF
  2

  9
$PUCSORTHOVIEW
 70
     0
  9
$PUCSORGTOP
 10
0.0
 20
0.0
 30
0.0
  9
$PUCSORGBOTTOM
 10
0.0
 20
0.0
 30
0.0
  9
$PUCSORGLEFT
 10
0.0
 20
0.0
 30
0.0
  9
$PUCSORGRIGHT
 10
0.0
 20
0.0
 30
0.0
  9
$PUCSORGFRONT
 10
0.0
 20
0.0
 30
0.0
  9
$PUCSORGBACK
 10
0.0
 20
0.0
 30
0.0
  9
$USERI1
 70
     0
  9
$USERI2
 70
     0
  9
$USERI3
 70
     0
  9
$USERI4
 70
     0
  9
$USERI5
 70
     0
  9
$USERR1
 40
0.0
  9
$USERR2
 40
0.0
  9
$USERR3
 40
0.0
  9
$USERR4
 40
0.0
  9
$USERR5
 40
0.0
  9
$WORLDVIEW
 70
     1
  9
$SHADEDGE
 70
     3
  9
$SHADEDIF
 70
    70
  9
$TILEMODE
 70
     1
  9
$MAXACTVP
 70
    64
  9
$PINSBASE
 10
0.0
 20
0.0
 30
0.0
  9
$PLIMCHECK
 70
     0
  9
$PEXTMIN
 10
1.0000000000E+20
 20
1.0000000000E+20
 30
1.0000000000E+20
  9
$PEXTMAX
 10
-1.0000000000E+20
 20
-1.0000000000E+20
 30
-1.0000000000E+20
  9
$PLIMMIN
 10
0.0
 20
0.0
  9
$PLIMMAX
 10
420.0
 20
297.0
  9
$UNITMODE
 70
     0
  9
$VISRETAIN
 70
     1
  9
$PLINEGEN
 70
     0
  9
$PSLTSCALE
 70
     1
  9
$TREEDEPTH
 70
  3020
  9
$CMLSTYLE
  2
Standard
  9
$CMLJUST
 70
     0
  9
$CMLSCALE
 40
20.0
  9
$PROXYGRAPHICS
 70
     1
  9
$MEASUREMENT
 70
     1
  9
$CELWEIGHT
370
    -1
  9
$ENDCAPS
280
     0
  9
$JOINSTYLE
280
     0
  9
$LWDISPLAY
290
     1
  9
$INSUNITS
 70
     4
  9
$HYPERLINKBASE
  1

  9
$STYLESHEET
  1

  9
$XEDIT
290
     1
  9
$CEPSNTYPE
380
     0
  9
$PSTYLEMODE
290
     1
  9
$FINGERPRINTGUID
  2
{ca7cede7-6312-4f7b-a5c8-bbfbb617e5aa}
  9
$VERSIONGUID
  2
{FAEB1C32-E019-11D5-929B-00C0DF256EC4}
  9
$EXTNAMES
290
     1
  9
$PSVPSCALE
 40
0.0
  9
$OLESTARTUP
290
     0
  0
ENDSEC
  0
SECTION
  2
CLASSES
  0
CLASS
  1
ACDBDICTIONARYWDFLT
  2
AcDbDictionaryWithDefault
  3
ObjectDBX Classes
 90
        0
280
     0
281
     0
  0
CLASS
  1
VISUALSTYLE
  2
AcDbVisualStyle
  3
ObjectDBX Classes
 90
     4095
280
     0
281
     0
  0
CLASS
  1
MATERIAL
  2
AcDbMaterial
  3
ObjectDBX Classes
 90
     1153
280
     0
281
     0
  0
CLASS
  1
SCALE
  2
AcDbScale
  3
ObjectDBX Classes
 90
     1153
280
     0
281
     0
  0
CLASS
  1
TABLESTYLE
  2
AcDbTableStyle
  3
ObjectDBX Classes
 90
     4095
280
     0
281
     0
  0
CLASS
  1
MLEADERSTYLE
  2
AcDbMLeaderStyle
  3
ACDB_MLEADERSTYLE_CLASS
 90
     4095
280
     0
281
     0
  0
CLASS
  1
SUN
  2
AcDbSun
  3
SCENEOE
 90
     1153
280
     0
281
     0
  0
CLASS
  1
ACDBPLACEHOLDER
  2
AcDbPlaceHolder
  3
ObjectDBX Classes
 90
        0
280
     0
281
     0
  0
CLASS
  1
LAYOUT
  2
AcDbLayout
  3
ObjectDBX Classes
 90
        0
280
     0
281
     0
  0
ENDSEC
  0
SECTION
  2
TABLES
  0
TABLE
  2
VPORT
  5
8
330
0
100
AcDbSymbolTable
 70
     1
  0
VPORT
  5
29
330
8
100
AcDbSymbolTableRecord
100
AcDbViewportTableRecord
  2
*Active
 70
     0
 10
0.0
 20
0.0
 11
1.0
 21
1.0
 12
139.7
 22
107.95
 13
0.0
 23
0.0
 14
10.0
 24
10.0
 15
10.0
 25
10.0
 16
0.0
 26
0.0
 36
1.0
 17
0.0
 27
0.0
 37
0.0
 40
215.9
 41
1.2941176471
 42
50.0
 43
0.0
 44
0.0
 50
0.0
 51
0.0
 71
     0
 72
  2000
 73
     1
 74
     3
 75
     0
 76
     0
 77
     0
 78
     0
281
     0
 65
     1
110
0.0
120
0.0
130
0.0
111
1.0
121
0.0
131
0.0
112
0.0
122
1.0
132
0.0
 79
     0
146
0.0
  0
ENDTAB
  0
TABLE
  2
LTYPE
  5
5
330
0
100
AcDbSymbolTable
 70
     6
  0
LTYPE
  5
14
330
5
100
AcDbSymbolTableRecord
100
AcDbLinetypeTableRecord
  2
ByBlock
 70
     0
  3

 72
    65
 73
     0
 40
0.0
  0
LTYPE
  5
15
330
5
100
AcDbSymbolTableRecord
100
AcDbLinetypeTableRecord
  2
ByLayer
 70
     0
  3

 72
    65
 73
     0
 40
0.0
  0
LTYPE
  5
16
330
5
100
AcDbSymbolTableRecord
100
AcDbLinetypeTableRecord
  2
Continuous
 70
     0
  3
Solid line
 72
    65
 73
     0
 40
0.0
  0
LTYPE
  5
6E
330
5
100
AcDbSymbolTableRecord
100
AcDbLinetypeTableRecord
  2
HIDDEN
 70
     0
  3
Hidden __ __ __ __ __ __ __ __ __ __ __ __ __ __
 72
    65
 73
     2
 40
1.905
 49
1.27
 74
     0
 49
-0.635
 74
     0
  0
LTYPE
  5
6F
330
5
100
AcDbSymbolTableRecord
100
AcDbLinetypeTableRecord
  2
PHANTOM
 70
     0
  3
Phantom ______  __  __  ______  __  __  ______
 72
    65
 73
     6
 40
12.7
 49
6.35
 74
     0
 49
-1.27
 74
     0
 49
1.27
 74
     0
 49
-1.27
 74
     0
 49
1.27
 74
     0
 49
-1.27
 74
     0
  0
LTYPE
  5
70
330
5
100
AcDbSymbolTableRecord
100
AcDbLinetypeTableRecord
  2
CENTER
 70
     0
  3
Center ____ _ ____ _ ____ _ ____ _ ____ _ ____
 72
    65
 73
     4
 40
10.16
 49
6.35
 74
     0
 49
-1.27
 74
     0
 49
1.27
 74
     0
 49
-1.27
 74
     0
  0
LTYPE
  5
71
330
5
100
AcDbSymbolTableRecord
100
AcDbLinetypeTableRecord
  2
CENTERX2
 70
     0
  3
Center (2x) ________  __  ________  __  _____
 72
    65
 73
     4
 40
20.32
 49
12.7
 74
     0
 49
-2.54
 74
     0
 49
2.54
 74
     0
 49
-2.54
 74
     0
  0
LTYPE
  5
72
330
5
100
AcDbSymbolTableRecord
100
AcDbLinetypeTableRecord
  2
DOT2
 70
     0
  3
Dot (.5x) ........................................
 72
    65
 73
     2
 40
0.635
 49
0.0
 74
     0
 49
-0.635
 74
     0
  0
ENDTAB
  0
TABLE
  2
LAYER
  5
2
330
0
100
AcDbSymbolTable
 70
    17
  0
LAYER
  5
10
330
2
100
AcDbSymbolTableRecord
100
AcDbLayerTableRecord
  2
0
 70
     0
 62
     7
  6
Continuous
370
    -3
390
F
  0
LAYER
  5
73
330
2
100
AcDbSymbolTableRecord
100
AcDbLayerTableRecord
  2
FORMAT
 70
     0
 62
     7
  6
Continuous
370
    -3
390
F
  0
LAYER
  5
74
330
2
100
AcDbSymbolTableRecord
100
AcDbLayerTableRecord
  2
YARDIMCI_GEOMETRI
 70
     0
 62
    -6
  6
Continuous
290
     0
370
    -3
390
F
  0
LAYER
  5
75
330
2
100
AcDbSymbolTableRecord
100
AcDbLayerTableRecord
  2
SAYFA_CERCEVESI
 70
     0
 62
     7
  6
Continuous
370
    25
390
F
  0
LAYER
  5
76
330
2
100
AcDbSymbolTableRecord
100
AcDbLayerTableRecord
  2
ANTET
 70
     0
 62
     7
  6
Continuous
370
    -3
390
F
  0
LAYER
  5
77
330
2
100
AcDbSymbolTableRecord
100
AcDbLayerTableRecord
  2
OLCU
 70
     0
 62
   150
  6
Continuous
370
    -3
390
F
  0
LAYER
  5
78
330
2
100
AcDbSymbolTableRecord
100
AcDbLayerTableRecord
  2
METIN
 70
     0
 62
    96
  6
Continuous
370
    -3
390
F
  0
LAYER
  5
79
330
2
100
AcDbSymbolTableRecord
100
AcDbLayerTableRecord
  2
BALON
 70
     0
 62
     5
  6
Continuous
370
    -3
390
F
  0
LAYER
  5
7A
330
2
100
AcDbSymbolTableRecord
100
AcDbLayerTableRecord
  2
VURGU
 70
     0
 62
     7
  6
Continuous
370
    -3
390
F
  0
LAYER
  5
7B
330
2
100
AcDbSymbolTableRecord
100
AcDbLayerTableRecord
  2
SILIK
 70
     0
 62
     7
  6
Continuous
370
    -3
390
F
  0
LAYER
  5
7C
330
2
100
AcDbSymbolTableRecord
100
AcDbLayerTableRecord
  2
MODEL
 70
     0
 62
     7
  6
Continuous
370
    -3
390
F
  0
LAYER
  5
7D
330
2
100
AcDbSymbolTableRecord
100
AcDbLayerTableRecord
  2
DETAYLANDıRMA
 70
     0
 62
   190
  6
Continuous
370
    -3
390
F
  0
LAYER
  5
7E
330
2
100
AcDbSymbolTableRecord
100
AcDbLayerTableRecord
  2
TOLERANS
 70
     0
 62
   230
  6
Continuous
370
    -3
390
F
  0
LAYER
  5
7F
330
2
100
AcDbSymbolTableRecord
100
AcDbLayerTableRecord
  2
MERKEZ_CIZGILERI
 70
     0
 62
    30
  6
Continuous
370
    -3
390
F
  0
LAYER
  5
80
330
2
100
AcDbSymbolTableRecord
100
AcDbLayerTableRecord
  2
KESIT-DETAY_CIZGILERI
 70
     0
 62
     7
  6
Continuous
370
    -3
390
F
  0
LAYER
  5
81
330
2
100
AcDbSymbolTableRecord
100
AcDbLayerTableRecord
  2
\U+041E\U+0421\U+0415\U+0412\U+042B\U+0415
 70
     0
 62
     7
  6
Continuous
370
    -3
390
F
  0
LAYER
  5
82
330
2
100
AcDbSymbolTableRecord
100
AcDbLayerTableRecord
  2
\U+0412\U+041E\U+0414\U+042F\U+041D\U+042B\U+0415_\U+0417\U+041D\U+0410\U+041A\U+0418
 70
     0
 62
    11
  6
Continuous
370
    -3
390
F
  0
ENDTAB
  0
TABLE
  2
STYLE
  5
3
330
0
100
AcDbSymbolTable
 70
     1
  0
STYLE
  5
11
330
3
100
AcDbSymbolTableRecord
100
AcDbTextStyleTableRecord
  2
Standard
 70
     0
 40
0.0
 41
1.0
 50
0.0
 71
     0
 42
3.5
  3
txt
  4

  0
ENDTAB
  0
TABLE
  2
VIEW
  5
6
330
0
100
AcDbSymbolTable
 70
     0
  0
ENDTAB
  0
TABLE
  2
UCS
  5
7
330
0
100
AcDbSymbolTable
 70
     0
  0
ENDTAB
  0
TABLE
  2
APPID
  5
9
330
0
100
AcDbSymbolTable
 70
     1
  0
APPID
  5
12
330
9
100
AcDbSymbolTableRecord
100
AcDbRegAppTableRecord
  2
ACAD
 70
     0
  0
ENDTAB
  0
TABLE
  2
DIMSTYLE
  5
A
330
0
100
AcDbSymbolTable
 70
     1
100
AcDbDimStyleTable
  0
DIMSTYLE
105
27
330
A
100
AcDbSymbolTableRecord
100
AcDbDimStyleTableRecord
  2
ISO-25
 70
     0
 41
2.5
 42
0.625
 43
3.75
 44
1.25
 73
     0
 74
     0
 77
     1
 78
     8
140
2.5
141
2.5
143
0.0393700787
147
0.625
171
     3
172
     1
178
     0
271
     2
272
     2
274
     3
278
    44
283
     0
284
     8
340
11
  0
ENDTAB
  0
TABLE
  2
BLOCK_RECORD
  5
1
330
0
100
AcDbSymbolTable
 70
     2
  0
BLOCK_RECORD
  5
1F
330
1
100
AcDbSymbolTableRecord
100
AcDbBlockTableRecord
  2
*Model_Space
340
22
  0
BLOCK_RECORD
  5
1B
330
1
100
AcDbSymbolTableRecord
100
AcDbBlockTableRecord
  2
*Paper_Space
340
1E
  0
BLOCK_RECORD
  5
23
330
1
100
AcDbSymbolTableRecord
100
AcDbBlockTableRecord
  2
*Paper_Space0
340
26
  0
BLOCK_RECORD
  5
87
330
1
100
AcDbSymbolTableRecord
100
AcDbBlockTableRecord
  2
SW_CENTERMARKSYMBOL_0
340
0
102
{BLKREFS
331
92
102
}
  0
ENDTAB
  0
ENDSEC
  0
SECTION
  2
BLOCKS
  0
BLOCK
  5
20
330
1F
100
AcDbEntity
  8
0
100
AcDbBlockBegin
  2
*Model_Space
 70
     0
 10
0.0
 20
0.0
 30
0.0
  3
*Model_Space
  1

  0
ENDBLK
  5
21
330
1F
100
AcDbEntity
  8
0
100
AcDbBlockEnd
  0
BLOCK
  5
1C
330
1B
100
AcDbEntity
 67
     1
  8
0
100
AcDbBlockBegin
  2
*Paper_Space
 70
     0
 10
0.0
 20
0.0
 30
0.0
  3
*Paper_Space
  1

  0
ENDBLK
  5
1D
330
1B
100
AcDbEntity
 67
     1
  8
0
100
AcDbBlockEnd
  0
BLOCK
  5
24
330
23
100
AcDbEntity
  8
0
100
AcDbBlockBegin
  2
*Paper_Space0
 70
     0
 10
0.0
 20
0.0
 30
0.0
  3
*Paper_Space0
  1

  0
ENDBLK
  5
25
330
23
100
AcDbEntity
  8
0
100
AcDbBlockEnd
  0
BLOCK
  5
88
330
87
100
AcDbEntity
  8
0
100
AcDbBlockBegin
  2
SW_CENTERMARKSYMBOL_0
 70
     0
 10
0.0
 20
0.0
 30
0.0
  3
SW_CENTERMARKSYMBOL_0
  1

  0
LINE
  5
8A
330
87
100
AcDbEntity
  8
FORMAT
 62
     0
100
AcDbLine
 10
0.0
 20
0.0
 30
0.0
 11
0.0
 21
2.5
 31
0.0
  0
LINE
  5
8B
330
87
100
AcDbEntity
  8
FORMAT
 62
     0
100
AcDbLine
 10
0.0
 20
0.0
 30
0.0
 11
-2.5
 21
0.0
 31
0.0
  0
LINE
  5
8C
330
87
100
AcDbEntity
  8
FORMAT
 62
     0
100
AcDbLine
 10
0.0
 20
0.0
 30
0.0
 11
0.0
 21
-2.5
 31
0.0
  0
LINE
  5
8D
330
87
100
AcDbEntity
  8
FORMAT
 62
     0
100
AcDbLine
 10
0.0
 20
0.0
 30
0.0
 11
2.5
 21
0.0
 31
0.0
  0
LINE
  5
8E
330
87
100
AcDbEntity
  8
FORMAT
 62
     0
100
AcDbLine
 10
0.0
 20
5.0
 30
0.0
 11
0.0
 21
81.5
 31
0.0
  0
LINE
  5
8F
330
87
100
AcDbEntity
  8
FORMAT
 62
     0
100
AcDbLine
 10
-5.0
 20
0.0
 30
0.0
 11
-81.5
 21
0.0
 31
0.0
  0
LINE
  5
90
330
87
100
AcDbEntity
  8
FORMAT
 62
     0
100
AcDbLine
 10
0.0
 20
-5.0
 30
0.0
 11
0.0
 21
-81.5
 31
0.0
  0
LINE
  5
91
330
87
100
AcDbEntity
  8
FORMAT
 62
     0
100
AcDbLine
 10
5.0
 20
0.0
 30
0.0
 11
81.5
 21
0.0
 31
0.0
  0
ENDBLK
  5
89
330
87
100
AcDbEntity
  8
0
100
AcDbBlockEnd
  0
ENDSEC
  0
SECTION
  2
ENTITIES
  0
CIRCLE
  5
83
330
1F
100
AcDbEntity
  8
0
  6
Continuous
 62
     7
370
    25
100
AcDbCircle
 10
139.3092050098
 20
111.8029632112
 30
0.0
 40
62.49999999999999
  0
CIRCLE
  5
84
330
1F
100
AcDbEntity
  8
0
  6
Continuous
 62
     7
370
    25
100
AcDbCircle
 10
139.3092050098
 20
111.8029632112
 30
0.0
 40
51.09999999999999
  0
CIRCLE
  5
85
330
1F
100
AcDbEntity
  8
0
  6
Continuous
 62
     7
370
    25
100
AcDbCircle
 10
139.3092050098
 20
111.8029632112
 30
0.0
 40
67.5
  0
CIRCLE
  5
86
330
1F
100
AcDbEntity
  8
0
  6
Continuous
 62
     7
370
    25
100
AcDbCircle
 10
139.3092050098
 20
111.8029632112
 30
0.0
 40
79.0
  0
INSERT
  5
92
330
1F
100
AcDbEntity
  8
FORMAT
 62
     7
100
AcDbBlockReference
  2
SW_CENTERMARKSYMBOL_0
 10
139.3092050098
 20
111.8029632112
 30
0.0
  0
LINE
  5
93
330
1F
100
AcDbEntity
  8
0
  6
Continuous
 62
     7
370
    25
100
AcDbLine
 10
218.3092050098
 20
240.258349736
 30
0.0
 11
218.3092050098
 21
260.258349736
 31
0.0
  0
LINE
  5
94
330
1F
100
AcDbEntity
  8
0
  6
Continuous
 62
     7
370
    25
100
AcDbLine
 10
60.3092050098
 20
260.258349736
 30
0.0
 11
60.3092050098
 21
240.258349736
 31
0.0
  0
LINE
  5
95
330
1F
100
AcDbEntity
  8
0
  6
Continuous
 62
     7
370
    25
100
AcDbLine
 10
206.8092050098
 20
260.258349736
 30
0.0
 11
201.8092050098
 21
279.258349736
 31
0.0
  0
LINE
  5
96
330
1F
100
AcDbEntity
  8
0
  6
Continuous
 62
     7
370
    25
100
AcDbLine
 10
76.8092050098
 20
279.258349736
 30
0.0
 11
71.8092050098
 21
260.258349736
 31
0.0
  0
LINE
  5
97
330
1F
100
AcDbEntity
  8
0
  6
Continuous
 62
     7
370
    25
100
AcDbLine
 10
201.8092050098
 20
279.258349736
 30
0.0
 11
201.8092050098
 21
399.258349736
 31
0.0
  0
LINE
  5
98
330
1F
100
AcDbEntity
  8
0
  6
Continuous
 62
     7
370
    25
100
AcDbLine
 10
76.8092050098
 20
399.258349736
 30
0.0
 11
76.8092050098
 21
279.258349736
 31
0.0
  0
LINE
  5
99
330
1F
100
AcDbEntity
  8
0
  6
Continuous
 62
     7
370
    25
100
AcDbLine
 10
218.3092050098
 20
240.258349736
 30
0.0
 11
60.3092050098
 21
240.258349736
 31
0.0
  0
LINE
  5
9A
330
1F
100
AcDbEntity
  8
0
  6
Continuous
 62
     7
370
    25
100
AcDbLine
 10
218.3092050098
 20
260.258349736
 30
0.0
 11
60.3092050098
 21
260.258349736
 31
0.0
  0
LINE
  5
9B
330
1F
100
AcDbEntity
  8
0
  6
Continuous
 62
     7
370
    25
100
AcDbLine
 10
201.8092050098
 20
279.258349736
 30
0.0
 11
76.8092050098
 21
279.258349736
 31
0.0
  0
LINE
  5
9C
330
1F
100
AcDbEntity
  8
0
  6
Continuous
 62
     7
370
    25
100
AcDbLine
 10
201.8092050098
 20
399.258349736
 30
0.0
 11
76.8092050098
 21
399.258349736
 31
0.0
  0
LINE
  5
9D
330
1F
100
AcDbEntity
  8
0
  6
Continuous
 62
     7
370
    25
100
AcDbLine
 10
-1.3797301074
 20
190.8029632112
 30
0.0
 11
-21.3797301074
 21
190.8029632112
 31
0.0
  0
LINE
  5
9E
330
1F
100
AcDbEntity
  8
0
  6
Continuous
 62
     7
370
    25
100
AcDbLine
 10
-21.3797301074
 20
32.8029632112
 30
0.0
 11
-1.3797301074
 21
32.8029632112
 31
0.0
  0
LINE
  5
9F
330
1F
100
AcDbEntity
  8
0
  6
Continuous
 62
     7
370
    25
100
AcDbLine
 10
-21.3797301074
 20
179.3029632112
 30
0.0
 11
-40.3797301074
 21
174.3029632112
 31
0.0
  0
LINE
  5
A0
330
1F
100
AcDbEntity
  8
0
  6
Continuous
 62
     7
370
    25
100
AcDbLine
 10
-40.3797301074
 20
49.3029632112
 30
0.0
 11
-21.3797301074
 21
44.3029632112
 31
0.0
  0
LINE
  5
A1
330
1F
100
AcDbEntity
  8
0
  6
Continuous
 62
     7
370
    25
100
AcDbLine
 10
-40.3797301074
 20
174.3029632112
 30
0.0
 11
-160.3797301074
 21
174.3029632112
 31
0.0
  0
LINE
  5
A2
330
1F
100
AcDbEntity
  8
0
  6
Continuous
 62
     7
370
    25
100
AcDbLine
 10
-160.3797301074
 20
49.3029632112
 30
0.0
 11
-40.3797301074
 21
49.3029632112
 31
0.0
  0
LINE
  5
A3
330
1F
100
AcDbEntity
  8
0
  6
Continuous
 62
     7
370
    25
100
AcDbLine
 10
-1.3797301074
 20
190.8029632112
 30
0.0
 11
-1.3797301074
 21
32.8029632112
 31
0.0
  0
LINE
  5
A4
330
1F
100
AcDbEntity
  8
0
  6
Continuous
 62
     7
370
    25
100
AcDbLine
 10
-21.3797301074
 20
190.8029632112
 30
0.0
 11
-21.3797301074
 21
32.8029632112
 31
0.0
  0
LINE
  5
A5
330
1F
100
AcDbEntity
  8
0
  6
Continuous
 62
     7
370
    25
100
AcDbLine
 10
-40.3797301074
 20
174.3029632112
 30
0.0
 11
-40.3797301074
 21
49.3029632112
 31
0.0
  0
LINE
  5
A6
330
1F
100
AcDbEntity
  8
0
  6
Continuous
 62
     7
370
    25
100
AcDbLine
 10
-160.3797301074
 20
174.3029632112
 30
0.0
 11
-160.3797301074
 21
49.3029632112
 31
0.0
  0
LINE
  5
A7
330
1F
100
AcDbEntity
  8
0
  6
Continuous
 62
     7
370
    25
100
AcDbLine
 10
269.1358922604
 20
32.8029632112
 30
0.0
 11
289.1358922604
 21
32.8029632112
 31
0.0
  0
LINE
  5
A8
330
1F
100
AcDbEntity
  8
0
  6
Continuous
 62
     7
370
    25
100
AcDbLine
 10
289.1358922604
 20
190.8029632112
 30
0.0
 11
269.1358922604
 21
190.8029632112
 31
0.0
  0
LINE
  5
A9
330
1F
100
AcDbEntity
  8
0
  6
Continuous
 62
     7
370
    25
100
AcDbLine
 10
289.1358922604
 20
44.3029632112
 30
0.0
 11
308.1358922604
 21
49.3029632112
 31
0.0
  0
LINE
  5
AA
330
1F
100
AcDbEntity
  8
0
  6
Continuous
 62
     7
370
    25
100
AcDbLine
 10
308.1358922604
 20
174.3029632112
 30
0.0
 11
289.1358922604
 21
179.3029632112
 31
0.0
  0
LINE
  5
AB
330
1F
100
AcDbEntity
  8
0
  6
Continuous
 62
     7
370
    25
100
AcDbLine
 10
308.1358922604
 20
49.3029632112
 30
0.0
 11
428.1358922604
 21
49.3029632112
 31
0.0
  0
LINE
  5
AC
330
1F
100
AcDbEntity
  8
0
  6
Continuous
 62
     7
370
    25
100
AcDbLine
 10
428.1358922604
 20
174.3029632112
 30
0.0
 11
308.1358922604
 21
174.3029632112
 31
0.0
  0
LINE
  5
AD
330
1F
100
AcDbEntity
  8
0
  6
Continuous
 62
     7
370
    25
100
AcDbLine
 10
269.1358922604
 20
111.8029632112
 30
0.0
 11
269.1358922604
 21
190.8029632112
 31
0.0
  0
LINE
  5
AE
330
1F
100
AcDbEntity
  8
0
  6
Continuous
 62
     7
370
    25
100
AcDbLine
 10
269.1358922604
 20
32.8029632112
 30
0.0
 11
269.1358922604
 21
111.8029632112
 31
0.0
  0
LINE
  5
AF
330
1F
100
AcDbEntity
  8
0
  6
Continuous
 62
     7
370
    25
100
AcDbLine
 10
289.1358922604
 20
111.8029632112
 30
0.0
 11
289.1358922604
 21
190.8029632112
 31
0.0
  0
LINE
  5
B0
330
1F
100
AcDbEntity
  8
0
  6
Continuous
 62
     7
370
    25
100
AcDbLine
 10
289.1358922604
 20
32.8029632112
 30
0.0
 11
289.1358922604
 21
111.8029632112
 31
0.0
  0
LINE
  5
B1
330
1F
100
AcDbEntity
  8
0
  6
Continuous
 62
     7
370
    25
100
AcDbLine
 10
308.1358922604
 20
111.8029632112
 30
0.0
 11
308.1358922604
 21
174.3029632112
 31
0.0
  0
LINE
  5
B2
330
1F
100
AcDbEntity
  8
0
  6
Continuous
 62
     7
370
    25
100
AcDbLine
 10
308.1358922604
 20
49.3029632112
 30
0.0
 11
308.1358922604
 21
111.8029632112
 31
0.0
  0
LINE
  5
B3
330
1F
100
AcDbEntity
  8
0
  6
Continuous
 62
     7
370
    25
100
AcDbLine
 10
428.1358922604
 20
111.8029632112
 30
0.0
 11
428.1358922604
 21
174.3029632112
 31
0.0
  0
LINE
  5
B4
330
1F
100
AcDbEntity
  8
0
  6
Continuous
 62
     7
370
    25
100
AcDbLine
 10
428.1358922604
 20
49.3029632112
 30
0.0
 11
428.1358922604
 21
111.8029632112
 31
0.0
  0
LINE
  5
B5
330
1F
100
AcDbEntity
  8
0
  6
Continuous
 62
     7
370
    25
100
AcDbLine
 10
60.3092050098
 20
-18.4917503383
 30
0.0
 11
60.3092050098
 21
-38.4917503383
 31
0.0
  0
LINE
  5
B6
330
1F
100
AcDbEntity
  8
0
  6
Continuous
 62
     7
370
    25
100
AcDbLine
 10
218.3092050098
 20
-38.4917503383
 30
0.0
 11
218.3092050098
 21
-18.4917503383
 31
0.0
  0
LINE
  5
B7
330
1F
100
AcDbEntity
  8
0
  6
Continuous
 62
     7
370
    25
100
AcDbLine
 10
71.8092050098
 20
-38.4917503383
 30
0.0
 11
76.8092050098
 21
-57.4917503383
 31
0.0
  0
LINE
  5
B8
330
1F
100
AcDbEntity
  8
0
  6
Continuous
 62
     7
370
    25
100
AcDbLine
 10
201.8092050098
 20
-57.4917503383
 30
0.0
 11
206.8092050098
 21
-38.4917503383
 31
0.0
  0
LINE
  5
B9
330
1F
100
AcDbEntity
  8
0
  6
Continuous
 62
     7
370
    25
100
AcDbLine
 10
76.8092050098
 20
-57.4917503383
 30
0.0
 11
76.8092050098
 21
-177.4917503383
 31
0.0
  0
LINE
  5
BA
330
1F
100
AcDbEntity
  8
0
  6
Continuous
 62
     7
370
    25
100
AcDbLine
 10
201.8092050098
 20
-177.4917503383
 30
0.0
 11
201.8092050098
 21
-57.4917503383
 31
0.0
  0
LINE
  5
BB
330
1F
100
AcDbEntity
  8
0
  6
Continuous
 62
     7
370
    25
100
AcDbLine
 10
60.3092050098
 20
-18.4917503383
 30
0.0
 11
218.3092050098
 21
-18.4917503383
 31
0.0
  0
LINE
  5
BC
330
1F
100
AcDbEntity
  8
0
  6
Continuous
 62
     7
370
    25
100
AcDbLine
 10
60.3092050098
 20
-38.4917503383
 30
0.0
 11
218.3092050098
 21
-38.4917503383
 31
0.0
  0
LINE
  5
BD
330
1F
100
AcDbEntity
  8
0
  6
Continuous
 62
     7
370
    25
100
AcDbLine
 10
76.8092050098
 20
-57.4917503383
 30
0.0
 11
201.8092050098
 21
-57.4917503383
 31
0.0
  0
LINE
  5
BE
330
1F
100
AcDbEntity
  8
0
  6
Continuous
 62
     7
370
    25
100
AcDbLine
 10
76.8092050098
 20
-177.4917503383
 30
0.0
 11
201.8092050098
 21
-177.4917503383
 31
0.0
  0
LINE
  5
BF
330
1F
100
AcDbEntity
  8
0
  6
Continuous
 62
     7
370
    25
100
AcDbLine
 10
303.7594962342
 20
-28.7941990531
 30
0.0
 11
247.7560495626
 21
-83.4552798696
 31
0.0
  0
LINE
  5
C0
330
1F
100
AcDbEntity
  8
0
  6
Continuous
 62
     7
370
    25
100
AcDbLine
 10
335.0658193939
 20
-172.9092014829
 30
0.0
 11
391.0692660656
 21
-118.2481206664
 31
0.0
  0
LINE
  5
C1
330
1F
100
AcDbEntity
  8
0
  6
Continuous
 62
     7
370
    25
100
AcDbLine
 10
300.1921367686
 20
-29.811022968
 30
0.0
 11
298.4458217986
 21
-33.9805082005
 31
0.0
  0
LINE
  5
C2
330
1F
100
AcDbEntity
  8
0
  6
Continuous
 62
     7
370
    25
100
AcDbLine
 10
385.7555916299
 20
-123.4344298138
 30
0.0
 11
389.9662095939
 21
-121.7897658846
 31
0.0
  0
LINE
  5
C3
330
1F
100
AcDbEntity
  8
0
  6
Continuous
 62
     7
370
    25
100
AcDbLine
 10
310.4357267848
 20
0.7785698652
 30
0.0
 11
301.1018190062
 21
-8.3316102709
 31
0.0
  0
LINE
  5
C4
330
1F
100
AcDbEntity
  8
0
  6
Continuous
 62
     7
370
    25
100
AcDbLine
 10
411.461368073
 20
-121.4013671901
 30
0.0
 11
420.7952758516
 21
-112.291187054
 31
0.0
  0
LWPOLYLINE
  5
C5
330
1F
100
AcDbEntity
  8
0
  6
Continuous
 62
     7
370
    25
100
AcDbPolyline
 90
      115
 70
   128
 43
0.0
 10
236.1348018734
 20
-113.1593722585
 10
236.2187377724
 20
-110.2309700595
 10
236.4702905588
 20
-107.3570852793
 10
236.8886962751
 20
-104.5464458116
 10
237.4726842368
 20
-101.807587476
 10
238.2204808918
 20
-99.1488280954
 10
239.1298152061
 20
-96.5782422346
 10
240.1979255613
 20
-94.1036366783
 10
241.4215681414
 20
-91.7325267224
 10
242.7970267841
 20
-89.4721133497
 10
244.3201242667
 20
-87.3292613614
 10
245.9862349922
 20
-85.3104785286
 10
247.790299037
 20
-83.4218958284
 10
249.7268375181
 20
-81.6692488244
 10
251.7899692315
 20
-80.0578602479
 10
253.9734285143
 20
-78.5926238331
 10
256.2705842722
 20
-77.2779894548
 10
258.6744601187
 20
-76.1179496144
 10
261.1777555619
 20
-75.1160273148
 10
263.7728681759
 20
-74.2752653611
 10
266.4519166888
 20
-73.5982171196
 10
269.2067649184
 20
-73.0869387637
 10
272.0290464812
 20
-72.7429830289
 10
274.9101902008
 20
-72.5673944975
 10
277.8414461385
 20
-72.560706426
 10
280.8139121663
 20
-72.722939126
 10
283.8185610026
 20
-73.053599902
 10
286.8462676275
 20
-73.5516845482
 10
289.8878369957
 20
-74.2156803978
 10
292.9340319609
 20
-75.0435709173
 10
295.975601329
 20
-76.0328418303
 10
299.003307954
 20
-77.1804887537
 10
302.0079567903
 20
-78.4830263214
 10
304.980422818
 20
-79.9364987696
 10
307.9116787557
 20
-81.5364919503
 10
310.7928224754
 20
-83.2781467369
 10
313.6151040382
 20
-85.1561737808
 10
316.3699522678
 20
-87.1648695759
 10
319.0490007807
 20
-89.2981337788
 10
321.6441133946
 20
-91.5494877364
 10
324.1474088378
 20
-93.9120941607
 10
326.5512846844
 20
-96.3787778936
 10
328.8484404423
 20
-98.9420476977
 10
331.031899725
 20
-101.5941190069
 10
333.0950314385
 20
-104.3269375677
 10
335.0315699195
 20
-107.1322039
 10
336.8356339644
 20
-110.0013985021
 10
338.5017446899
 20
-112.9258077244
 10
340.0248421724
 20
-115.8965502321
 10
341.4003008151
 20
-118.904603978
 10
342.6239433952
 20
-121.9408336015
 10
343.6920537505
 20
-124.9960181732
 10
344.6013880648
 20
-128.0608791979
 10
345.3491847197
 20
-131.1261087935
 10
345.9331726814
 20
-134.1823979583
 10
346.3515783977
 20
-137.2204648427
 10
346.6031311841
 20
-140.2310829373
 10
346.6870670831
 20
-143.205109094
 10
346.6031311841
 20
-146.1335112931
 10
346.3515783977
 20
-149.0073960733
 10
345.9331726814
 20
-151.818035541
 10
345.3491847197
 20
-154.5568938765
 10
344.6013880648
 20
-157.2156532571
 10
343.6920537505
 20
-159.7862391179
 10
342.6239433952
 20
-162.2608446742
 10
341.4003008151
 20
-164.6319546302
 10
340.0248421724
 20
-166.8923680029
 10
338.5017446899
 20
-169.0352199911
 10
336.8356339644
 20
-171.0540028239
 10
335.0315699195
 20
-172.9425855241
 10
333.0950314385
 20
-174.6952325281
 10
331.031899725
 20
-176.3066211046
 10
328.8484404423
 20
-177.7718575194
 10
326.5512846844
 20
-179.0864918977
 10
324.1474088378
 20
-180.2465317381
 10
321.6441133946
 20
-181.2484540377
 10
319.0490007807
 20
-182.0892159915
 10
316.3699522678
 20
-182.7662642329
 10
313.6151040382
 20
-183.2775425888
 10
310.7928224753
 20
-183.6214983236
 10
307.9116787557
 20
-183.7970868551
 10
304.980422818
 20
-183.8037749265
 10
302.0079567903
 20
-183.6415422265
 10
299.003307954
 20
-183.3108814505
 10
295.975601329
 20
-182.8127968043
 10
292.9340319609
 20
-182.1488009547
 10
289.8878369957
 20
-181.3209104353
 10
286.8462676275
 20
-180.3316395222
 10
283.8185610026
 20
-179.1839925989
 10
280.8139121663
 20
-177.8814550312
 10
277.8414461385
 20
-176.4279825829
 10
274.9101902008
 20
-174.8279894022
 10
272.0290464812
 20
-173.0863346157
 10
269.2067649184
 20
-171.2083075717
 10
266.4519166888
 20
-169.1996117767
 10
263.7728681759
 20
-167.0663475737
 10
261.1777555619
 20
-164.8149936161
 10
258.6744601187
 20
-162.4523871918
 10
256.2705842722
 20
-159.9857034589
 10
253.9734285143
 20
-157.4224336548
 10
251.7899692315
 20
-154.7703623457
 10
249.7268375181
 20
-152.0375437849
 10
247.790299037
 20
-149.2322774526
 10
245.9862349922
 20
-146.3630828504
 10
244.3201242667
 20
-143.4386736281
 10
242.7970267841
 20
-140.4679311204
 10
241.4215681414
 20
-137.4598773746
 10
240.1979255613
 20
-134.423647751
 10
239.1298152061
 20
-131.3684631793
 10
238.2204808918
 20
-128.3036021546
 10
237.4726842368
 20
-125.238372559
 10
236.8886962751
 20
-122.1820833942
 10
236.4702905588
 20
-119.1440165098
 10
236.2187377724
 20
-116.1333984152
 10
236.1348018734
 20
-113.1593722585
  0
LWPOLYLINE
  5
C6
330
1F
100
AcDbEntity
  8
0
  6
Continuous
 62
     7
370
    25
100
AcDbPolyline
 90
      104
 70
   128
 43
0.0
 10
246.2171684606
 20
-115.8995434579
 10
246.3012303495
 20
-113.2520915292
 10
246.5531033007
 20
-110.6601807359
 10
246.97185033
 20
-108.1334531564
 10
247.5559136712
 20
-105.6813083833
 10
248.3031205702
 20
-103.3128685563
 10
249.2106913683
 20
-101.0369444269
 10
250.2752498425
 20
-98.8620025825
 10
251.4928357653
 20
-96.7961339495
 10
252.8589196371
 20
-94.847023695
 10
254.3684195363
 20
-93.0219226372
 10
256.015720024
 20
-91.3276202718
 10
257.7946930342
 20
-89.7704195149
 10
259.6987206705
 20
-88.3561132556
 10
261.7207198251
 20
-87.0899628062
 10
263.8531685282
 20
-85.9766783293
 10
266.0881339307
 20
-85.0204013165
 10
268.4173018144
 20
-84.2246891809
 10
270.8320075218
 20
-83.5925020241
 10
273.3232681892
 20
-83.1261916237
 10
275.8818161631
 20
-82.8274926851
 10
278.4981334772
 20
-82.6975163879
 10
281.162487259
 20
-82.7367462525
 10
283.8649659377
 20
-82.9450363412
 10
286.5955161149
 20
-83.3216118013
 10
289.3439799648
 20
-83.8650717472
 10
292.1001330211
 20
-84.5733944723
 10
294.8537222137
 20
-85.4439449695
 10
297.5945040097
 20
-86.4734847338
 10
300.3122825209
 20
-87.6581838097
 10
302.9969474328
 20
-88.9936350387
 10
305.6385116155
 20
-90.4748704546
 10
308.2271482768
 20
-92.0963797644
 10
310.7532275183
 20
-93.8521308469
 10
313.2073521593
 20
-95.7355921927
 10
315.5803926949
 20
-97.7397572021
 10
317.8635212584
 20
-99.8571702494
 10
320.0482444618
 20
-102.0799544191
 10
322.1264349911
 20
-104.399840808
 10
324.0903618411
 20
-106.8081992866
 10
325.9327190749
 20
-109.2960706029
 10
327.6466530026
 20
-111.8541997124
 10
329.2257876774
 20
-114.4730702066
 10
330.6642486146
 20
-117.1429397155
 10
331.9566846451
 20
-119.853876149
 10
333.0982878219
 20
-122.5957946455
 10
334.0848113063
 20
-125.3584950882
 10
334.912585166
 20
-128.1317000499
 10
335.5785300279
 20
-130.9050930261
 10
336.0801685335
 20
-133.6683568127
 10
336.4156345545
 20
-136.411211887
 10
336.5836801353
 20
-139.1234546479
 10
336.5836801353
 20
-141.7949953741
 10
336.4156345545
 20
-144.4158957588
 10
336.0801685335
 20
-146.9764058804
 10
335.5785300279
 20
-149.467000473
 10
334.912585166
 20
-151.8784143612
 10
334.0848113063
 20
-154.2016769269
 10
333.0982878219
 20
-156.4281454808
 10
331.9566846451
 20
-158.5495374136
 10
330.6642486146
 20
-160.557961008
 10
329.2257876774
 20
-162.4459447963
 10
327.6466530026
 20
-164.2064653549
 10
325.9327190749
 20
-165.8329734316
 10
324.0903618411
 20
-167.3194183095
 10
322.1264349911
 20
-168.6602703161
 10
320.0482444618
 20
-169.8505413938
 10
317.8635212584
 20
-170.8858036561
 10
315.5803926949
 20
-171.7622058593
 10
313.2073521593
 20
-172.4764877297
 10
310.7532275183
 20
-173.0259920918
 10
308.2271482768
 20
-173.4086747533
 10
305.6385116155
 20
-173.6231121095
 10
302.9969474328
 20
-173.6685064395
 10
300.3122825209
 20
-173.5446888732
 10
297.5945040097
 20
-173.2521200203
 10
294.8537222137
 20
-172.7918882559
 10
292.1001330211
 20
-172.1657056726
 10
289.3439799648
 20
-171.3759017107
 10
286.5955161149
 20
-170.4254144928
 10
283.8649659377
 20
-169.3177798937
 10
281.162487259
 20
-168.057118387
 10
278.4981334772
 20
-166.6481197162
 10
275.8818161631
 20
-165.0960254489
 10
273.3232681892
 20
-163.4066094777
 10
270.8320075218
 20
-161.586156541
 10
268.4173018144
 20
-159.6414388434
 10
266.0881339307
 20
-157.5796908623
 10
263.8531685282
 20
-155.4085824358
 10
261.7207198251
 20
-153.1361902296
 10
259.6987206705
 20
-150.7709676921
 10
257.7946930342
 20
-148.3217136065
 10
256.015720024
 20
-145.7975393588
 10
254.3684195362
 20
-143.207835043
 10
252.8589196371
 20
-140.5622345294
 10
251.4928357653
 20
-137.8705796254
 10
250.2752498425
 20
-135.1428834642
 10
249.2106913683
 20
-132.3892932547
 10
248.3031205702
 20
-129.6200525333
 10
247.5559136712
 20
-126.8454630573
 10
246.97185033
 20
-124.0758464819
 10
246.5531033007
 20
-121.3215059626
 10
246.3012303495
 20
-118.592687827
 10
246.2171684606
 20
-115.8995434579
  0
LWPOLYLINE
  5
C7
330
1F
100
AcDbEntity
  8
0
  6
Continuous
 62
     7
370
    25
100
AcDbPolyline
 90
       59
 70
   128
 43
0.0
 10
303.7594962342
 20
-28.7941990531
 10
303.7937457086
 20
-28.7608150119
 10
305.7302841897
 20
-27.0081680079
 10
307.7934159032
 20
-25.3967794314
 10
309.9768751859
 20
-23.9315430166
 10
312.2740309438
 20
-22.6169086383
 10
314.6779067903
 20
-21.4568687979
 10
317.1812022335
 20
-20.4549464983
 10
319.7763148475
 20
-19.6141845445
 10
322.4553633604
 20
-18.9371363031
 10
325.21021159
 20
-18.4258579472
 10
328.0324931528
 20
-18.0819022124
 10
330.9136368724
 20
-17.906313681
 10
333.8448928101
 20
-17.8996256095
 10
336.8173588379
 20
-18.0618583095
 10
339.8220076742
 20
-18.3925190855
 10
342.8497142991
 20
-18.8906037317
 10
345.8912836673
 20
-19.5545995813
 10
348.9374786325
 20
-20.3824901008
 10
351.9790480006
 20
-21.3717610138
 10
355.0067546256
 20
-22.5194079372
 10
358.0114034619
 20
-23.8219455049
 10
360.9838694896
 20
-25.2754179531
 10
363.9151254273
 20
-26.8754111338
 10
366.796269147
 20
-28.6170659204
 10
369.6185507098
 20
-30.4950929643
 10
372.3733989394
 20
-32.5037887593
 10
375.0524474523
 20
-34.6370529623
 10
377.6475600662
 20
-36.8884069199
 10
380.1508555095
 20
-39.2510133442
 10
382.554731356
 20
-41.7176970771
 10
384.8518871139
 20
-44.2809668812
 10
387.0353463966
 20
-46.9330381904
 10
389.0984781101
 20
-49.6658567512
 10
391.0350165911
 20
-52.4711230835
 10
392.839080636
 20
-55.3403176856
 10
394.5051913615
 20
-58.2647269079
 10
396.0282888441
 20
-61.2354694156
 10
397.4037474867
 20
-64.2435231615
 10
398.6273900668
 20
-67.279752785
 10
399.6955004221
 20
-70.3349373567
 10
400.6048347364
 20
-73.3997983814
 10
401.3526313913
 20
-76.465027977
 10
401.9366193531
 20
-79.5213171418
 10
402.3550250693
 20
-82.5593840262
 10
402.6065778557
 20
-85.5700021208
 10
402.6905137547
 20
-88.5440282775
 10
402.6065778557
 20
-91.4724304766
 10
402.3550250693
 20
-94.3463152567
 10
401.9366193531
 20
-97.1569547245
 10
401.3526313913
 20
-99.89581306
 10
400.6048347364
 20
-102.5545724406
 10
399.6955004221
 20
-105.1251583014
 10
398.6273900668
 20
-107.5997638577
 10
397.4037474867
 20
-109.9708738137
 10
396.0282888441
 20
-112.2312871864
 10
394.5051913615
 20
-114.3741391746
 10
392.839080636
 20
-116.3929220074
 10
391.0692660656
 20
-118.2481206664
  0
LWPOLYLINE
  5
C8
330
1F
100
AcDbEntity
  8
0
  6
Continuous
 62
     7
370
    25
100
AcDbPolyline
 90
       73
 70
   128
 43
0.0
 10
300.1921367686
 20
-29.811022968
 10
300.6146582484
 20
-28.8364018028
 10
301.8303611046
 20
-26.3486105971
 10
303.1978293118
 20
-23.9681756261
 10
304.7132514909
 20
-21.7017315892
 10
306.3724038883
 20
-19.5555954724
 10
308.1706621489
 20
-17.5357489419
 10
310.1030142043
 20
-15.6478216723
 10
312.1640742428
 20
-13.8970756554
 10
314.3480977203
 20
-12.2883905346
 10
316.6489973717
 20
-10.8262500036
 10
319.060360177
 20
-9.5147293105
 10
321.5754652356
 20
-8.3574838986
 10
324.1873024986
 20
-7.3577392184
 10
326.888592307
 20
-6.5182817378
 10
329.6718056817
 20
-5.8414511752
 10
332.5291853078
 20
-5.3291339787
 10
335.4527671558
 20
-4.9827580685
 10
338.4344026788
 20
-4.8032888561
 10
341.4657815237
 20
-4.7912265545
 10
344.538454694
 20
-4.9466047836
 10
347.6438580984
 20
-5.2689904762
 10
350.7733364208
 20
-5.7574850857
 10
353.9181672437
 20
-6.41072709
 10
357.0695853596
 20
-7.2268957864
 10
360.218807201
 20
-8.2037163664
 10
363.3570553217
 20
-9.3384662559
 10
366.4755828614
 20
-10.6279827033
 10
369.5656979245
 20
-12.0686715951
 10
372.6187878061
 20
-13.6565174728
 10
375.6263429971
 20
-15.3870947254
 10
378.5799809017
 20
-17.2555799235
 10
381.4714692013
 20
-19.2567652638
 10
384.2927487996
 20
-21.3850730838
 10
387.0359562841
 20
-23.6345714079
 10
389.6934458436
 20
-25.9989904808
 10
392.2578105781
 20
-28.4717402425
 10
394.7219031432
 20
-31.0459286959
 10
397.0788556708
 20
-33.7143811161
 10
399.3220989117
 20
-36.4696600475
 10
401.4453805444
 20
-39.3040860336
 10
403.4427826023
 20
-42.2097590209
 10
405.3087379676
 20
-45.1785803774
 10
407.0380458881
 20
-48.2022754658
 10
408.6258864723
 20
-51.2724167053
 10
410.0678341238
 20
-54.3804470618
 10
411.3598698758
 20
-57.5177038971
 10
412.4983925931
 20
-60.6754431138
 10
413.4802290085
 20
-63.8448635264
 10
414.3026425678
 20
-67.0171313916
 10
414.9633410571
 20
-70.18340503
 10
415.460482991
 20
-73.3348594691
 10
415.7926827459
 20
-76.46271104
 10
415.9590144215
 20
-79.5582418595
 10
415.9590144215
 20
-82.612824128
 10
415.7926827459
 20
-85.6179441767
 10
415.460482991
 20
-88.5652261973
 10
414.9633410571
 20
-91.446455586
 10
414.3026425678
 20
-94.2536018397
 10
413.4802290085
 20
-96.9788409384
 10
412.4983925931
 20
-99.614577152
 10
411.3598698758
 20
-102.1534642108
 10
410.0678341238
 20
-104.5884257813
 10
408.6258864723
 20
-106.9126751888
 10
407.0380458881
 20
-109.1197343334
 10
405.3087379676
 20
-111.2034517453
 10
403.4427826023
 20
-113.1580197305
 10
401.4453805444
 20
-114.9779905574
 10
399.3220989117
 20
-116.6582916408
 10
397.0788556708
 20
-118.1942396803
 10
394.7219031432
 20
-119.5815537132
 10
392.2578105781
 20
-120.8163670464
 10
389.9662095939
 20
-121.7897658846
  0
LWPOLYLINE
  5
C9
330
1F
100
AcDbEntity
  8
0
  6
Continuous
 62
     7
370
    25
100
AcDbPolyline
 90
       67
 70
   128
 43
0.0
 10
310.4357267848
 20
0.7785698652
 10
311.3706468378
 20
1.6655253611
 10
313.5789901379
 20
3.5744054026
 10
315.9107582935
 20
5.3425595454
 10
318.360420608
 20
6.9657939234
 10
320.9221667532
 20
8.4402584038
 10
323.5899205502
 20
9.7624557198
 10
326.3573543816
 20
10.9292497655
 10
329.2179042004
 20
11.9378730343
 10
332.1647850982
 20
12.7859331832
 10
335.1910073992
 20
13.4714187073
 10
338.2893932384
 20
13.9927037106
 10
341.452593587
 20
14.3485517628
 10
344.6731056831
 20
14.5381188314
 10
347.943290828
 20
14.5609552845
 10
351.2553925036
 20
14.4170069564
 10
354.6015547709
 20
14.1066152767
 10
357.9738409025
 20
13.6305164601
 10
361.3642522084
 20
12.9898397605
 10
364.7647470074
 20
12.1861047921
 10
368.1672597017
 20
11.2212179256
 10
371.5637199071
 20
10.097467766
 10
374.9460715951
 20
8.8175197245
 10
378.3062922012
 20
7.3844096964
 10
381.6364116535
 20
5.8015368605
 10
384.9285312765
 20
4.0726556161
 10
388.1748425262
 20
2.2018666786
 10
391.3676455109
 20
0.1936073527
 10
394.4993672547
 20
-1.9473589924
 10
397.5625796597
 20
-4.215954221
 10
400.5500171244
 20
-6.606797476
 10
403.4545937773
 20
-9.1142179412
 10
406.2694202833
 20
-11.7322682924
 10
408.9878201851
 20
-14.4547388033
 10
411.6033457383
 20
-17.2751720746
 10
414.1097932055
 20
-20.1868783504
 10
416.5012175699
 20
-23.1829513849
 10
418.7719466374
 20
-26.2562848239
 10
420.9165944894
 20
-29.3995890602
 10
422.9300742582
 20
-32.6054085232
 10
424.8076101921
 20
-35.8661393634
 10
426.5447489834
 20
-39.1740474876
 10
428.1373703309
 20
-42.5212869031
 10
429.5816967125
 20
-45.8999183278
 10
430.8743023458
 20
-49.3019280212
 10
432.0121213129
 20
-52.7192467923
 10
432.992454833
 20
-56.1437691385
 10
433.8129776633
 20
-59.567372471
 10
434.4717436143
 20
-62.9819363811
 10
434.9671901659
 20
-66.3793619003
 10
435.2981421736
 20
-69.7515907108
 10
435.4638146559
 20
-73.0906242583
 10
435.4638146559
 20
-76.3885427242
 10
435.2981421736
 20
-79.6375238102
 10
434.9671901659
 20
-82.8298612922
 10
434.4717436143
 20
-85.9579832983
 10
433.8129776633
 20
-89.0144702687
 10
432.992454833
 20
-91.9920725541
 10
432.0121213129
 20
-94.8837276107
 10
430.8743023458
 20
-97.6825767523
 10
429.5816967125
 20
-100.3819814179
 10
428.1373703309
 20
-102.9755389178
 10
426.5447489834
 20
-105.4570976203
 10
424.8076101921
 20
-107.8207715423
 10
422.9300742582
 20
-110.0609543103
 10
420.9165944894
 20
-112.1723324583
 10
420.7952758516
 20
-112.291187054
  0
LWPOLYLINE
  5
CA
330
1F
100
AcDbEntity
  8
0
  6
Continuous
 62
     7
370
    25
100
AcDbPolyline
 90
       93
 70
   128
 43
0.0
 10
286.4127390243
 20
-45.7251658794
 10
286.4954227389
 20
-42.60316231
 10
286.7438086378
 20
-39.3815477201
 10
287.1571304799
 20
-36.2203805947
 10
287.7344079113
 20
-33.127158873
 10
288.4742716939
 20
-30.109219335
 10
289.3749669524
 20
-27.1737202
 10
290.4343573372
 20
-24.3276241476
 10
291.6499300914
 20
-21.5776818032
 10
293.0188020107
 20
-18.9304157262
 10
294.537726282
 20
-16.3921049393
 10
296.203100185
 20
-13.9687700352
 10
298.0109736366
 20
-11.6661588965
 10
299.9570585608
 20
-9.4897330626
 10
302.0367390592
 20
-7.444654775
 10
304.2450823593
 20
-5.5357747335
 10
306.5768505149
 20
-3.7676205907
 10
309.0265128294
 20
-2.1443862127
 10
311.5882589746
 20
-0.6699217323
 10
314.2560127716
 20
0.6522755837
 10
317.023446603
 20
1.8190696294
 10
319.8839964218
 20
2.8276928982
 10
322.8308773196
 20
3.6757530471
 10
325.8570996206
 20
4.3612385712
 10
328.9554854598
 20
4.8825235746
 10
332.1186858084
 20
5.2383716267
 10
335.3391979045
 20
5.4279386954
 10
338.6093830494
 20
5.4507751484
 10
341.921484725
 20
5.3068268203
 10
345.2676469923
 20
4.9964351406
 10
348.6399331239
 20
4.520336324
 10
352.0303444298
 20
3.8796596244
 10
355.4308392288
 20
3.075924656
 10
358.8333519231
 20
2.1110377895
 10
362.2298121285
 20
0.9872876299
 10
365.6121638165
 20
-0.2926604116
 10
368.9723844226
 20
-1.7257704397
 10
372.3025038749
 20
-3.3086432756
 10
375.5946234979
 20
-5.03752452
 10
378.8409347476
 20
-6.9083134575
 10
382.0337377323
 20
-8.9165727834
 10
385.1654594761
 20
-11.0575391285
 10
388.2286718811
 20
-13.3261343571
 10
391.2161093458
 20
-15.7169776121
 10
394.1206859987
 20
-18.2243980773
 10
396.9355125047
 20
-20.8424484284
 10
399.6539124065
 20
-23.5649189393
 10
402.2694379597
 20
-26.3853522107
 10
404.7758854269
 20
-29.2970584865
 10
407.1673097913
 20
-32.293131521
 10
409.4380388588
 20
-35.36646496
 10
411.5826867108
 20
-38.5097691962
 10
413.5961664796
 20
-41.7155886593
 10
415.4737024135
 20
-44.9763194995
 10
417.2108412048
 20
-48.2842276237
 10
418.8034625523
 20
-51.6314670391
 10
420.2477889339
 20
-55.0100984638
 10
421.5403945672
 20
-58.4121081573
 10
422.6782135343
 20
-61.8294269284
 10
423.6585470544
 20
-65.2539492745
 10
424.4790698847
 20
-68.6775526071
 10
425.1378358357
 20
-72.0921165172
 10
425.6332823873
 20
-75.4895420364
 10
425.964234395
 20
-78.8617708469
 10
426.1299068773
 20
-82.2008043944
 10
426.1299068773
 20
-85.4987228603
 10
425.964234395
 20
-88.7477039463
 10
425.6332823873
 20
-91.9400414283
 10
425.1378358357
 20
-95.0681634344
 10
424.4790698847
 20
-98.1246504048
 10
423.6585470544
 20
-101.1022526901
 10
422.6782135343
 20
-103.9939077468
 10
421.5403945672
 20
-106.7927568883
 10
420.2477889339
 20
-109.4921615539
 10
418.8034625523
 20
-112.0857190539
 10
417.2108412048
 20
-114.5672777564
 10
415.4737024135
 20
-116.9309516784
 10
413.5961664796
 20
-119.1711344464
 10
411.5826867108
 20
-121.2825125944
 10
409.4380388588
 20
-123.2600781668
 10
407.1673097913
 20
-125.0991405964
 10
404.7758854269
 20
-126.7953378305
 10
402.2694379597
 20
-128.3446466764
 10
399.6539124065
 20
-129.7433923449
 10
396.9355125047
 20
-130.9882571657
 10
394.1206859987
 20
-132.0762884571
 10
391.2161093458
 20
-133.0049055289
 10
388.2286718811
 20
-133.7719058041
 10
385.1654594761
 20
-134.3754700428
 10
382.0337377323
 20
-134.8141666573
 10
378.8409347476
 20
-135.0869551077
 10
375.5946234979
 20
-135.19318837
 10
373.7225088557
 20
-135.1790874927
  0
ENDSEC
  0
SECTION
  2
OBJECTS
  0
DICTIONARY
  5
C
330
0
100
AcDbDictionary
281
     1
  3
ACAD_GROUP
350
D
  3
ACAD_LAYOUT
350
1A
  3
ACAD_MLINESTYLE
350
17
  3
ACAD_PLOTSETTINGS
350
19
  3
ACAD_PLOTSTYLENAME
350
E
  3
ACAD_SCALELIST
350
47
  0
DICTIONARY
  5
D
102
{ACAD_REACTORS
330
C
102
}
330
C
100
AcDbDictionary
281
     1
  0
DICTIONARY
  5
1A
102
{ACAD_REACTORS
330
C
102
}
330
C
100
AcDbDictionary
281
     1
  3
Layout1
350
1E
  3
Layout2
350
26
  3
Model
350
22
  0
DICTIONARY
  5
17
102
{ACAD_REACTORS
330
C
102
}
330
C
100
AcDbDictionary
281
     1
  3
Standard
350
18
  0
DICTIONARY
  5
19
102
{ACAD_REACTORS
330
C
102
}
330
C
100
AcDbDictionary
281
     1
  0
ACDBDICTIONARYWDFLT
  5
E
102
{ACAD_REACTORS
330
C
102
}
330
C
100
AcDbDictionary
281
     1
  3
Normal
350
F
100
AcDbDictionaryWithDefault
340
F
  0
DICTIONARY
  5
47
102
{ACAD_REACTORS
330
C
102
}
330
C
100
AcDbDictionary
281
     1
  3
A0
350
48
  3
A1
350
49
  3
A2
350
4A
  3
A3
350
4B
  3
A4
350
4C
  3
A5
350
4D
  3
A6
350
4E
  3
A7
350
4F
  3
A8
350
50
  3
A9
350
51
  3
B0
350
52
  3
B1
350
53
  3
B2
350
54
  3
B3
350
55
  3
B4
350
56
  3
B5
350
57
  3
B6
350
58
  3
B7
350
59
  3
B8
350
5A
  3
B9
350
5B
  3
C0
350
5C
  3
C1
350
5D
  3
C2
350
5E
  3
C3
350
5F
  3
C4
350
60
  3
C5
350
61
  3
C6
350
62
  3
C7
350
63
  3
C8
350
64
  3
C9
350
65
  3
D0
350
66
  3
D1
350
67
  3
D2
350
68
  0
LAYOUT
  5
1E
102
{ACAD_REACTORS
330
1A
102
}
330
1A
100
AcDbPlotSettings
  1

  2
none_device
  4

  6

 40
0.0
 41
0.0
 42
0.0
 43
0.0
 44
0.0
 45
0.0
 46
0.0
 47
0.0
 48
0.0
 49
0.0
140
0.0
141
0.0
142
1.0
143
1.0
 70
   688
 72
     1
 73
     0
 74
     5
  7

 75
    16
147
1.0
148
0.0
149
0.0
100
AcDbLayout
  1
Layout1
 70
     1
 71
     1
 10
0.0
 20
0.0
 11
420.0
 21
297.0
 12
0.0
 22
0.0
 32
0.0
 14
1.0000000000E+20
 24
1.0000000000E+20
 34
1.0000000000E+20
 15
-1.0000000000E+20
 25
-1.0000000000E+20
 35
-1.0000000000E+20
146
0.0
 13
0.0
 23
0.0
 33
0.0
 16
1.0
 26
0.0
 36
0.0
 17
0.0
 27
1.0
 37
0.0
 76
     0
330
1B
  0
LAYOUT
  5
26
102
{ACAD_REACTORS
330
1A
102
}
330
1A
100
AcDbPlotSettings
  1

  2
none_device
  4

  6

 40
0.0
 41
0.0
 42
0.0
 43
0.0
 44
0.0
 45
0.0
 46
0.0
 47
0.0
 48
0.0
 49
0.0
140
0.0
141
0.0
142
1.0
143
1.0
 70
   688
 72
     1
 73
     0
 74
     5
  7

 75
    16
147
1.0
148
0.0
149
0.0
100
AcDbLayout
  1
Layout2
 70
     1
 71
     2
 10
0.0
 20
0.0
 11
0.0
 21
0.0
 12
0.0
 22
0.0
 32
0.0
 14
0.0
 24
0.0
 34
0.0
 15
0.0
 25
0.0
 35
0.0
146
0.0
 13
0.0
 23
0.0
 33
0.0
 16
1.0
 26
0.0
 36
0.0
 17
0.0
 27
1.0
 37
0.0
 76
     0
330
23
  0
LAYOUT
  5
22
102
{ACAD_REACTORS
330
1A
102
}
330
1A
100
AcDbPlotSettings
  1

  2
none_device
  4
Letter_(8.50_x_11.00_Inches)
  6

 40
6.35
 41
6.35
 42
6.35000508
 43
6.35000508
 44
215.9
 45
279.4
 46
0.0
 47
0.0
 48
0.0
 49
0.0
140
0.0
141
0.0
142
1.0
143
1.0
 70
  1712
 72
     1
 73
     0
 74
     0
  7

 75
     0
147
1.0
148
0.0
149
0.0
100
AcDbLayout
  1
Model
 70
     1
 71
     0
 10
0.0
 20
0.0
 11
279.4
 21
215.9
 12
0.0
 22
0.0
 32
0.0
 14
0.0
 24
0.0
 34
0.0
 15
279.4
 25
215.9
 35
0.0
146
0.0
 13
0.0
 23
0.0
 33
0.0
 16
1.0
 26
0.0
 36
0.0
 17
0.0
 27
1.0
 37
0.0
 76
     0
330
1F
331
29
  0
MLINESTYLE
  5
18
102
{ACAD_REACTORS
330
17
102
}
330
17
100
AcDbMlineStyle
  2
Standard
 70
     0
  3

 62
   256
 51
90.0
 52
90.0
 71
     2
 49
0.5
 62
   256
  6
BYLAYER
 49
-0.5
 62
   256
  6
BYLAYER
  0
ACDBPLACEHOLDER
  5
F
102
{ACAD_REACTORS
330
E
102
}
330
E
  0
SCALE
  5
48
102
{ACAD_REACTORS
330
47
102
}
330
47
100
AcDbScale
 70
     0
300
1:1
140
1.0
141
1.0
290
     1
  0
SCALE
  5
49
102
{ACAD_REACTORS
330
47
102
}
330
47
100
AcDbScale
 70
     0
300
1:2
140
1.0
141
2.0
290
     0
  0
SCALE
  5
4A
102
{ACAD_REACTORS
330
47
102
}
330
47
100
AcDbScale
 70
     0
300
1:4
140
1.0
141
4.0
290
     0
  0
SCALE
  5
4B
102
{ACAD_REACTORS
330
47
102
}
330
47
100
AcDbScale
 70
     0
300
1:5
140
1.0
141
5.0
290
     0
  0
SCALE
  5
4C
102
{ACAD_REACTORS
330
47
102
}
330
47
100
AcDbScale
 70
     0
300
1:8
140
1.0
141
8.0
290
     0
  0
SCALE
  5
4D
102
{ACAD_REACTORS
330
47
102
}
330
47
100
AcDbScale
 70
     0
300
1:10
140
1.0
141
10.0
290
     0
  0
SCALE
  5
4E
102
{ACAD_REACTORS
330
47
102
}
330
47
100
AcDbScale
 70
     0
300
1:16
140
1.0
141
16.0
290
     0
  0
SCALE
  5
4F
102
{ACAD_REACTORS
330
47
102
}
330
47
100
AcDbScale
 70
     0
300
1:20
140
1.0
141
20.0
290
     0
  0
SCALE
  5
50
102
{ACAD_REACTORS
330
47
102
}
330
47
100
AcDbScale
 70
     0
300
1:30
140
1.0
141
30.0
290
     0
  0
SCALE
  5
51
102
{ACAD_REACTORS
330
47
102
}
330
47
100
AcDbScale
 70
     0
300
1:40
140
1.0
141
40.0
290
     0
  0
SCALE
  5
52
102
{ACAD_REACTORS
330
47
102
}
330
47
100
AcDbScale
 70
     0
300
1:50
140
1.0
141
50.0
290
     0
  0
SCALE
  5
53
102
{ACAD_REACTORS
330
47
102
}
330
47
100
AcDbScale
 70
     0
300
1:100
140
1.0
141
100.0
290
     0
  0
SCALE
  5
54
102
{ACAD_REACTORS
330
47
102
}
330
47
100
AcDbScale
 70
     0
300
2:1
140
2.0
141
1.0
290
     0
  0
SCALE
  5
55
102
{ACAD_REACTORS
330
47
102
}
330
47
100
AcDbScale
 70
     0
300
4:1
140
4.0
141
1.0
290
     0
  0
SCALE
  5
56
102
{ACAD_REACTORS
330
47
102
}
330
47
100
AcDbScale
 70
     0
300
8:1
140
8.0
141
1.0
290
     0
  0
SCALE
  5
57
102
{ACAD_REACTORS
330
47
102
}
330
47
100
AcDbScale
 70
     0
300
10:1
140
10.0
141
1.0
290
     0
  0
SCALE
  5
58
102
{ACAD_REACTORS
330
47
102
}
330
47
100
AcDbScale
 70
     0
300
100:1
140
100.0
141
1.0
290
     0
  0
SCALE
  5
59
102
{ACAD_REACTORS
330
47
102
}
330
47
100
AcDbScale
 70
     0
300
1/128" = 1'-0"
140
0.0078125
141
12.0
290
     0
  0
SCALE
  5
5A
102
{ACAD_REACTORS
330
47
102
}
330
47
100
AcDbScale
 70
     0
300
1/64" = 1'-0"
140
0.015625
141
12.0
290
     0
  0
SCALE
  5
5B
102
{ACAD_REACTORS
330
47
102
}
330
47
100
AcDbScale
 70
     0
300
1/32" = 1'-0"
140
0.03125
141
12.0
290
     0
  0
SCALE
  5
5C
102
{ACAD_REACTORS
330
47
102
}
330
47
100
AcDbScale
 70
     0
300
1/16" = 1'-0"
140
0.0625
141
12.0
290
     0
  0
SCALE
  5
5D
102
{ACAD_REACTORS
330
47
102
}
330
47
100
AcDbScale
 70
     0
300
3/32" = 1'-0"
140
0.09375
141
12.0
290
     0
  0
SCALE
  5
5E
102
{ACAD_REACTORS
330
47
102
}
330
47
100
AcDbScale
 70
     0
300
1/8" = 1'-0"
140
0.125
141
12.0
290
     0
  0
SCALE
  5
5F
102
{ACAD_REACTORS
330
47
102
}
330
47
100
AcDbScale
 70
     0
300
3/16" = 1'-0"
140
0.1875
141
12.0
290
     0
  0
SCALE
  5
60
102
{ACAD_REACTORS
330
47
102
}
330
47
100
AcDbScale
 70
     0
300
1/4" = 1'-0"
140
0.25
141
12.0
290
     0
  0
SCALE
  5
61
102
{ACAD_REACTORS
330
47
102
}
330
47
100
AcDbScale
 70
     0
300
3/8" = 1'-0"
140
0.375
141
12.0
290
     0
  0
SCALE
  5
62
102
{ACAD_REACTORS
330
47
102
}
330
47
100
AcDbScale
 70
     0
300
1/2" = 1'-0"
140
0.5
141
12.0
290
     0
  0
SCALE
  5
63
102
{ACAD_REACTORS
330
47
102
}
330
47
100
AcDbScale
 70
     0
300
3/4" = 1'-0"
140
0.75
141
12.0
290
     0
  0
SCALE
  5
64
102
{ACAD_REACTORS
330
47
102
}
330
47
100
AcDbScale
 70
     0
300
1" = 1'-0"
140
1.0
141
12.0
290
     0
  0
SCALE
  5
65
102
{ACAD_REACTORS
330
47
102
}
330
47
100
AcDbScale
 70
     0
300
1-1/2" = 1'-0"
140
1.5
141
12.0
290
     0
  0
SCALE
  5
66
102
{ACAD_REACTORS
330
47
102
}
330
47
100
AcDbScale
 70
     0
300
3" = 1'-0"
140
3.0
141
12.0
290
     0
  0
SCALE
  5
67
102
{ACAD_REACTORS
330
47
102
}
330
47
100
AcDbScale
 70
     0
300
6" = 1'-0"
140
6.0
141
12.0
290
     0
  0
SCALE
  5
68
102
{ACAD_REACTORS
330
47
102
}
330
47
100
AcDbScale
 70
     0
300
1'-0" = 1'-0"
140
12.0
141
12.0
290
     0
  0
ENDSEC
  0
EOF
